  0
SECTION
  2
HEADER
  0
ENDSEC
  0
SECTION
  2
TABLES
  0
TABLE
  2
LTYPE
 70
     9
  0
LTYPE
  2
CONTINUOUS
 70
    64
  3
SOLID
 72
    65
 73
     0
 40
0.0
  0
LTYPE
  2
HIDDEN
 70
    64
  3
_ _ _ _ _ _ _ _ _ _ _ _ _ _ _ _ _ _ _ _ _ _ _
 72
    65
 73
     2
 40
1.5
 49
1.0
 49
-0.5
  0
LTYPE
  2
DOT
 70
    64
  3
...............................................
 72
    65
 73
     6
 40
1.0
 49
0.0
 49
-1.0
  0
LTYPE
  2
DASHDOT
 70
    64
  3
____ _ ____ _ ____ _ ____ _ ____ _ ____ _ ____
 72
    65
 73
     4
 40
8.0
 49
5.0
 49
-1.0
 49
1.0
 49
-1.0
  0
LTYPE
  2
DIVIDE
 70
    64
  3
_____ _ _ _____ _ _ _____ _ _ _____ _ _ ____
 72
    65
 73
     6
 40
10.0
 49
5.0
 49
-1.0
 49
1.0
 49
-1.0
 49
1.0
 49
-1.0
  0
ENDTAB
  0
TABLE
  2
LAYER
 70
     2
  0
LAYER
  2
NT4WORP000
 70
    64
 62
     7
  6
CONTINUOUS
  0
ENDTAB
  0
ENDSEC
  0
SECTION
  2
ENTITIES
  0
CIRCLE
  8
NT4WORP000
  6
CONTINUOUS
 10
123.210000000000
 20
102.860000000000
 40
2.000000000000
  0
CIRCLE
  8
NT4WORP000
  6
CONTINUOUS
 10
118.130000000000
 20
102.860000000000
 40
2.000000000000
  0
CIRCLE
  8
NT4WORP000
  6
CONTINUOUS
 10
118.130000000000
 20
109.210000000000
 40
2.000000000000
  0
CIRCLE
  8
NT4WORP000
  6
CONTINUOUS
 10
140.990000000000
 20
100.320000000000
 40
2.000000000000
  0
CIRCLE
  8
NT4WORP000
  6
CONTINUOUS
 10
146.070000000000
 20
100.320000000000
 40
2.000000000000
  0
CIRCLE
  8
NT4WORP000
  6
CONTINUOUS
 10
146.070000000000
 20
93.970000000000
 40
2.000000000000
  0
CIRCLE
  8
NT4WORP000
  6
CONTINUOUS
 10
140.990000000000
 20
93.970000000000
 40
2.000000000000
  0
LINE
  8
NT4WORP000
  6
CONTINUOUS
 10
165.387500000000
 20
89.175000000000
 11
166.975000000000
 21
91.080000000000
  0
LINE
  8
NT4WORP000
  6
CONTINUOUS
 10
166.975000000000
 20
91.080000000000
 11
166.975000000000
 21
89.175000000000
  0
LINE
  8
NT4WORP000
  6
CONTINUOUS
 10
166.975000000000
 20
89.175000000000
 11
168.562500000000
 21
91.080000000000
  0
LINE
  8
NT4WORP000
  6
CONTINUOUS
 10
168.562500000000
 20
91.080000000000
 11
168.562500000000
 21
90.127500000000
  0
LINE
  8
NT4WORP000
  6
CONTINUOUS
 10
168.562500000000
 20
90.127500000000
 11
168.562500000000
 21
89.175000000000
  0
LINE
  8
NT4WORP000
  6
CONTINUOUS
 10
168.990400000000
 20
87.270000000000
 11
166.229600000000
 21
87.270000000000
  0
ARC
  8
NT4WORP000
  6
CONTINUOUS
 10
166.229600000000
 20
87.770000000000
 40
0.500000000000
 50
224.999900000000
 51
269.999900000000
  0
LINE
  8
NT4WORP000
  6
CONTINUOUS
 10
165.876100000000
 20
87.416400000000
 11
165.741100000000
 21
87.551400000000
  0
ARC
  8
NT4WORP000
  6
CONTINUOUS
 10
166.094600000000
 20
87.905000000000
 40
0.500000000000
 50
135.000000000000
 51
225.000000000000
  0
LINE
  8
NT4WORP000
  6
CONTINUOUS
 10
165.741100000000
 20
88.258600000000
 11
165.876100000000
 21
88.393600000000
  0
ARC
  8
NT4WORP000
  6
CONTINUOUS
 10
166.229600000000
 20
88.040000000000
 40
0.500000000000
 50
90.000100000000
 51
135.000100000000
  0
LINE
  8
NT4WORP000
  6
CONTINUOUS
 10
166.229600000000
 20
88.540000000000
 11
168.990400000000
 21
88.540000000000
  0
ARC
  8
NT4WORP000
  6
CONTINUOUS
 10
168.990400000000
 20
88.040000000000
 40
0.500000000000
 50
44.999900000000
 51
89.999900000000
  0
LINE
  8
NT4WORP000
  6
CONTINUOUS
 10
169.343900000000
 20
88.393600000000
 11
170.321100000000
 21
87.416400000000
  0
ARC
  8
NT4WORP000
  6
CONTINUOUS
 10
170.674600000000
 20
87.770000000000
 40
0.500000000000
 50
224.999900000000
 51
269.999900000000
  0
LINE
  8
NT4WORP000
  6
CONTINUOUS
 10
170.674600000000
 20
87.270000000000
 11
173.435400000000
 21
87.270000000000
  0
ARC
  8
NT4WORP000
  6
CONTINUOUS
 10
173.435400000000
 20
87.770000000000
 40
0.500000000000
 50
270.000100000000
 51
315.000100000000
  0
LINE
  8
NT4WORP000
  6
CONTINUOUS
 10
173.788900000000
 20
87.416400000000
 11
173.923900000000
 21
87.551400000000
  0
ARC
  8
NT4WORP000
  6
CONTINUOUS
 10
173.570400000000
 20
87.905000000000
 40
0.500000000000
 50
-45.000000000000
 51
45.000000000000
  0
LINE
  8
NT4WORP000
  6
CONTINUOUS
 10
173.923900000000
 20
88.258600000000
 11
173.788900000000
 21
88.393600000000
  0
ARC
  8
NT4WORP000
  6
CONTINUOUS
 10
173.435400000000
 20
88.040000000000
 40
0.500000000000
 50
44.999900000000
 51
89.999900000000
  0
LINE
  8
NT4WORP000
  6
CONTINUOUS
 10
173.435400000000
 20
88.540000000000
 11
170.674600000000
 21
88.540000000000
  0
ARC
  8
NT4WORP000
  6
CONTINUOUS
 10
170.674600000000
 20
88.040000000000
 40
0.500000000000
 50
90.000100000000
 51
135.000100000000
  0
LINE
  8
NT4WORP000
  6
CONTINUOUS
 10
170.321100000000
 20
88.393600000000
 11
169.343900000000
 21
87.416400000000
  0
ARC
  8
NT4WORP000
  6
CONTINUOUS
 10
168.990400000000
 20
87.770000000000
 40
0.500000000000
 50
270.000100000000
 51
315.000100000000
  0
LINE
  8
NT4WORP000
  6
CONTINUOUS
 10
168.562500000000
 20
91.080000000000
 11
171.102500000000
 21
89.175000000000
  0
LINE
  8
NT4WORP000
  6
CONTINUOUS
 10
171.102500000000
 20
91.080000000000
 11
171.102500000000
 21
89.175000000000
  0
LINE
  8
NT4WORP000
  6
CONTINUOUS
 10
171.102500000000
 20
91.080000000000
 11
172.642500000000
 21
91.080000000000
  0
ARC
  8
NT4WORP000
  6
CONTINUOUS
 10
172.642500000000
 20
90.080000000000
 40
1.000000000000
 50
0.000000000000
 51
90.000000000000
  0
ARC
  8
NT4WORP000
  6
CONTINUOUS
 10
172.737500000000
 20
90.080000000000
 40
0.905000000000
 50
-90.000000000000
 51
0.000000000000
  0
LINE
  8
NT4WORP000
  6
CONTINUOUS
 10
172.737500000000
 20
89.175000000000
 11
171.102500000000
 21
89.175000000000
  0
LINE
  8
NT4WORP000
  6
CONTINUOUS
 10
168.562500000000
 20
90.127500000000
 11
174.277500000000
 21
90.127500000000
  0
LINE
  8
NT4WORP000
  6
CONTINUOUS
 10
101.080000000000
 20
92.390000000000
 11
97.080000000000
 21
92.390000000000
  0
LINE
  8
NT4WORP000
  6
CONTINUOUS
 10
107.430000000000
 20
92.390000000000
 11
103.430000000000
 21
92.390000000000
  0
LINE
  8
NT4WORP000
  6
CONTINUOUS
 10
97.080000000000
 20
85.390000000000
 11
101.080000000000
 21
85.390000000000
  0
LINE
  8
NT4WORP000
  6
CONTINUOUS
 10
103.430000000000
 20
85.390000000000
 11
107.430000000000
 21
85.390000000000
  0
LINE
  8
NT4WORP000
  6
CONTINUOUS
 10
164.580000000000
 20
119.060000000000
 11
160.580000000000
 21
119.060000000000
  0
LINE
  8
NT4WORP000
  6
CONTINUOUS
 10
160.580000000000
 20
112.060000000000
 11
164.580000000000
 21
112.060000000000
  0
LINE
  8
NT4WORP000
  6
CONTINUOUS
 10
97.080000000000
 20
92.390000000000
 11
97.080000000000
 21
85.390000000000
  0
LINE
  8
NT4WORP000
  6
CONTINUOUS
 10
103.430000000000
 20
92.390000000000
 11
103.430000000000
 21
85.390000000000
  0
LINE
  8
NT4WORP000
  6
CONTINUOUS
 10
107.430000000000
 20
85.390000000000
 11
107.430000000000
 21
92.390000000000
  0
LINE
  8
NT4WORP000
  6
CONTINUOUS
 10
160.580000000000
 20
119.060000000000
 11
160.580000000000
 21
112.060000000000
  0
LINE
  8
NT4WORP000
  6
CONTINUOUS
 10
164.580000000000
 20
112.060000000000
 11
164.580000000000
 21
119.060000000000
  0
LINE
  8
NT4WORP000
  6
CONTINUOUS
 10
92.500000000000
 20
131.500000000000
 11
92.500000000000
 21
81.500000000000
  0
LINE
  8
NT4WORP000
  6
CONTINUOUS
 10
185.500000000000
 20
81.500000000000
 11
185.500000000000
 21
131.500000000000
  0
LINE
  8
NT4WORP000
  6
CONTINUOUS
 10
95.500000000000
 20
78.500000000000
 11
182.500000000000
 21
78.500000000000
  0
LINE
  8
NT4WORP000
  6
CONTINUOUS
 10
182.500000000000
 20
134.500000000000
 11
95.500000000000
 21
134.500000000000
  0
ARC
  8
NT4WORP000
  6
CONTINUOUS
 10
95.500000000000
 20
131.500000000000
 40
3.000000000000
 50
90.000000000000
 51
180.000000000000
  0
ARC
  8
NT4WORP000
  6
CONTINUOUS
 10
95.500000000000
 20
81.500000000000
 40
3.000000000000
 50
180.000000000000
 51
270.000000000000
  0
ARC
  8
NT4WORP000
  6
CONTINUOUS
 10
182.500000000000
 20
81.500000000000
 40
3.000000000000
 50
-90.000000000000
 51
0.000000000000
  0
ARC
  8
NT4WORP000
  6
CONTINUOUS
 10
182.500000000000
 20
131.500000000000
 40
3.000000000000
 50
0.000000000000
 51
90.000000000000
  0
CIRCLE
  8
NT4WORP000
  6
CONTINUOUS
 10
142.260000000000
 20
107.940000000000
 40
2.000000000000
  0
LINE
  8
NT4WORP000
  6
CONTINUOUS
 10
101.080000000000
 20
92.390000000000
 11
101.080000000000
 21
85.390000000000
  0
LINE
  8
NT4WORP000
  6
CONTINUOUS
 10
92.500000000000
 20
132.500000000000
 11
92.500000000000
 21
148.000000000000
  0
LINE
  8
NT4WORP000
  6
CONTINUOUS
 10
185.500000000000
 20
132.500000000000
 11
185.500000000000
 21
148.000000000000
  0
LINE
  8
NT4WORP000
  6
CONTINUOUS
 10
92.500000000000
 20
145.000000000000
 11
185.500000000000
 21
145.000000000000
  0
LINE
  8
NT4WORP000
  6
CONTINUOUS
 10
94.500000000000
 20
145.500000000000
 11
92.500000000000
 21
145.000000000000
  0
LINE
  8
NT4WORP000
  6
CONTINUOUS
 10
92.500000000000
 20
145.000000000000
 11
94.500000000000
 21
144.500000000000
  0
LINE
  8
NT4WORP000
  6
CONTINUOUS
 10
183.500000000000
 20
145.500000000000
 11
185.500000000000
 21
145.000000000000
  0
LINE
  8
NT4WORP000
  6
CONTINUOUS
 10
185.500000000000
 20
145.000000000000
 11
183.500000000000
 21
144.500000000000
  0
TEXT
  8
NT4WORP000
 10
132.000000000000
 20
146.000000000000
 40
3.200000000000
 50
0.000000000000
  1
93
  0
LINE
  8
NT4WORP000
  6
CONTINUOUS
 10
94.500000000000
 20
134.500000000000
 11
75.000000000000
 21
134.500000000000
  0
LINE
  8
NT4WORP000
  6
CONTINUOUS
 10
94.500000000000
 20
78.500000000000
 11
75.000000000000
 21
78.500000000000
  0
LINE
  8
NT4WORP000
  6
CONTINUOUS
 10
78.000000000000
 20
78.500000000000
 11
78.000000000000
 21
134.500000000000
  0
LINE
  8
NT4WORP000
  6
CONTINUOUS
 10
77.500000000000
 20
80.500000000000
 11
78.000000000000
 21
78.500000000000
  0
LINE
  8
NT4WORP000
  6
CONTINUOUS
 10
78.000000000000
 20
78.500000000000
 11
78.500000000000
 21
80.500000000000
  0
LINE
  8
NT4WORP000
  6
CONTINUOUS
 10
77.500000000000
 20
132.500000000000
 11
78.000000000000
 21
134.500000000000
  0
LINE
  8
NT4WORP000
  6
CONTINUOUS
 10
78.000000000000
 20
134.500000000000
 11
78.500000000000
 21
132.500000000000
  0
TEXT
  8
NT4WORP000
 10
77.000000000000
 20
101.000000000000
 40
3.200000000000
 50
90.000000000000
  1
56
  0
ENDSEC
  0
EOF
