  0
SECTION
  2
HEADER
  0
ENDSEC
  0
SECTION
  2
TABLES
  0
TABLE
  2
LTYPE
 70
     9
  0
LTYPE
  2
CONTINUOUS
 70
    64
  3
SOLID
 72
    65
 73
     0
 40
0.0
  0
LTYPE
  2
HIDDEN
 70
    64
  3
_ _ _ _ _ _ _ _ _ _ _ _ _ _ _ _ _ _ _ _ _ _ _
 72
    65
 73
     2
 40
1.5
 49
1.0
 49
-0.5
  0
LTYPE
  2
DOT
 70
    64
  3
...............................................
 72
    65
 73
     6
 40
1.0
 49
0.0
 49
-1.0
  0
LTYPE
  2
DASHDOT
 70
    64
  3
____ _ ____ _ ____ _ ____ _ ____ _ ____ _ ____
 72
    65
 73
     4
 40
8.0
 49
5.0
 49
-1.0
 49
1.0
 49
-1.0
  0
LTYPE
  2
DIVIDE
 70
    64
  3
_____ _ _ _____ _ _ _____ _ _ _____ _ _ ____
 72
    65
 73
     6
 40
10.0
 49
5.0
 49
-1.0
 49
1.0
 49
-1.0
 49
1.0
 49
-1.0
  0
ENDTAB
  0
TABLE
  2
LAYER
 70
     2
  0
LAYER
  2
NT4WORP000
 70
    64
 62
     7
  6
CONTINUOUS
  0
ENDTAB
  0
ENDSEC
  0
SECTION
  2
ENTITIES
  0
CIRCLE
  8
NT4WORP000
  6
CONTINUOUS
 10
123.210000000000
 20
102.860000000000
 40
2.000000000000
  0
CIRCLE
  8
NT4WORP000
  6
CONTINUOUS
 10
118.130000000000
 20
102.860000000000
 40
2.000000000000
  0
CIRCLE
  8
NT4WORP000
  6
CONTINUOUS
 10
118.130000000000
 20
109.210000000000
 40
2.000000000000
  0
CIRCLE
  8
NT4WORP000
  6
CONTINUOUS
 10
140.990000000000
 20
100.320000000000
 40
2.000000000000
  0
CIRCLE
  8
NT4WORP000
  6
CONTINUOUS
 10
146.070000000000
 20
100.320000000000
 40
2.000000000000
  0
CIRCLE
  8
NT4WORP000
  6
CONTINUOUS
 10
146.070000000000
 20
93.970000000000
 40
2.000000000000
  0
CIRCLE
  8
NT4WORP000
  6
CONTINUOUS
 10
140.990000000000
 20
93.970000000000
 40
2.000000000000
  0
LINE
  8
NT4WORP000
  6
CONTINUOUS
 10
168.387500000000
 20
85.175000000000
 11
169.975000000000
 21
87.080000000000
  0
LINE
  8
NT4WORP000
  6
CONTINUOUS
 10
169.975000000000
 20
87.080000000000
 11
169.975000000000
 21
85.175000000000
  0
LINE
  8
NT4WORP000
  6
CONTINUOUS
 10
169.975000000000
 20
85.175000000000
 11
171.562500000000
 21
87.080000000000
  0
LINE
  8
NT4WORP000
  6
CONTINUOUS
 10
171.562500000000
 20
87.080000000000
 11
171.562500000000
 21
86.127500000000
  0
LINE
  8
NT4WORP000
  6
CONTINUOUS
 10
171.562500000000
 20
86.127500000000
 11
171.562500000000
 21
85.175000000000
  0
LINE
  8
NT4WORP000
  6
CONTINUOUS
 10
171.990400000000
 20
83.270000000000
 11
169.229600000000
 21
83.270000000000
  0
ARC
  8
NT4WORP000
  6
CONTINUOUS
 10
169.229600000000
 20
83.770000000000
 40
0.500000000000
 50
224.999900000000
 51
269.999900000000
  0
LINE
  8
NT4WORP000
  6
CONTINUOUS
 10
168.876100000000
 20
83.416400000000
 11
168.741100000000
 21
83.551400000000
  0
ARC
  8
NT4WORP000
  6
CONTINUOUS
 10
169.094600000000
 20
83.905000000000
 40
0.500000000000
 50
135.000000000000
 51
225.000000000000
  0
LINE
  8
NT4WORP000
  6
CONTINUOUS
 10
168.741100000000
 20
84.258600000000
 11
168.876100000000
 21
84.393600000000
  0
ARC
  8
NT4WORP000
  6
CONTINUOUS
 10
169.229600000000
 20
84.040000000000
 40
0.500000000000
 50
90.000100000000
 51
135.000100000000
  0
LINE
  8
NT4WORP000
  6
CONTINUOUS
 10
169.229600000000
 20
84.540000000000
 11
171.990400000000
 21
84.540000000000
  0
ARC
  8
NT4WORP000
  6
CONTINUOUS
 10
171.990400000000
 20
84.040000000000
 40
0.500000000000
 50
44.999900000000
 51
89.999900000000
  0
LINE
  8
NT4WORP000
  6
CONTINUOUS
 10
172.343900000000
 20
84.393600000000
 11
173.321100000000
 21
83.416400000000
  0
ARC
  8
NT4WORP000
  6
CONTINUOUS
 10
173.674600000000
 20
83.770000000000
 40
0.500000000000
 50
224.999900000000
 51
269.999900000000
  0
LINE
  8
NT4WORP000
  6
CONTINUOUS
 10
173.674600000000
 20
83.270000000000
 11
176.435400000000
 21
83.270000000000
  0
ARC
  8
NT4WORP000
  6
CONTINUOUS
 10
176.435400000000
 20
83.770000000000
 40
0.500000000000
 50
270.000100000000
 51
315.000100000000
  0
LINE
  8
NT4WORP000
  6
CONTINUOUS
 10
176.788900000000
 20
83.416400000000
 11
176.923900000000
 21
83.551400000000
  0
ARC
  8
NT4WORP000
  6
CONTINUOUS
 10
176.570400000000
 20
83.905000000000
 40
0.500000000000
 50
-45.000000000000
 51
45.000000000000
  0
LINE
  8
NT4WORP000
  6
CONTINUOUS
 10
176.923900000000
 20
84.258600000000
 11
176.788900000000
 21
84.393600000000
  0
ARC
  8
NT4WORP000
  6
CONTINUOUS
 10
176.435400000000
 20
84.040000000000
 40
0.500000000000
 50
44.999900000000
 51
89.999900000000
  0
LINE
  8
NT4WORP000
  6
CONTINUOUS
 10
176.435400000000
 20
84.540000000000
 11
173.674600000000
 21
84.540000000000
  0
ARC
  8
NT4WORP000
  6
CONTINUOUS
 10
173.674600000000
 20
84.040000000000
 40
0.500000000000
 50
90.000100000000
 51
135.000100000000
  0
LINE
  8
NT4WORP000
  6
CONTINUOUS
 10
173.321100000000
 20
84.393600000000
 11
172.343900000000
 21
83.416400000000
  0
ARC
  8
NT4WORP000
  6
CONTINUOUS
 10
171.990400000000
 20
83.770000000000
 40
0.500000000000
 50
270.000100000000
 51
315.000100000000
  0
LINE
  8
NT4WORP000
  6
CONTINUOUS
 10
171.562500000000
 20
87.080000000000
 11
174.102500000000
 21
85.175000000000
  0
LINE
  8
NT4WORP000
  6
CONTINUOUS
 10
174.102500000000
 20
87.080000000000
 11
174.102500000000
 21
85.175000000000
  0
LINE
  8
NT4WORP000
  6
CONTINUOUS
 10
174.102500000000
 20
87.080000000000
 11
175.642500000000
 21
87.080000000000
  0
ARC
  8
NT4WORP000
  6
CONTINUOUS
 10
175.642500000000
 20
86.080000000000
 40
1.000000000000
 50
0.000000000000
 51
90.000000000000
  0
ARC
  8
NT4WORP000
  6
CONTINUOUS
 10
175.737500000000
 20
86.080000000000
 40
0.905000000000
 50
-90.000000000000
 51
0.000000000000
  0
LINE
  8
NT4WORP000
  6
CONTINUOUS
 10
175.737500000000
 20
85.175000000000
 11
174.102500000000
 21
85.175000000000
  0
LINE
  8
NT4WORP000
  6
CONTINUOUS
 10
171.562500000000
 20
86.127500000000
 11
177.277500000000
 21
86.127500000000
  0
LINE
  8
NT4WORP000
  6
CONTINUOUS
 10
101.080000000000
 20
92.390000000000
 11
97.080000000000
 21
92.390000000000
  0
LINE
  8
NT4WORP000
  6
CONTINUOUS
 10
107.430000000000
 20
92.390000000000
 11
103.430000000000
 21
92.390000000000
  0
LINE
  8
NT4WORP000
  6
CONTINUOUS
 10
97.080000000000
 20
85.390000000000
 11
101.080000000000
 21
85.390000000000
  0
LINE
  8
NT4WORP000
  6
CONTINUOUS
 10
103.430000000000
 20
85.390000000000
 11
107.430000000000
 21
85.390000000000
  0
LINE
  8
NT4WORP000
  6
CONTINUOUS
 10
164.580000000000
 20
119.060000000000
 11
160.580000000000
 21
119.060000000000
  0
LINE
  8
NT4WORP000
  6
CONTINUOUS
 10
160.580000000000
 20
112.060000000000
 11
164.580000000000
 21
112.060000000000
  0
LINE
  8
NT4WORP000
  6
CONTINUOUS
 10
97.080000000000
 20
92.390000000000
 11
97.080000000000
 21
85.390000000000
  0
LINE
  8
NT4WORP000
  6
CONTINUOUS
 10
103.430000000000
 20
92.390000000000
 11
103.430000000000
 21
85.390000000000
  0
LINE
  8
NT4WORP000
  6
CONTINUOUS
 10
107.430000000000
 20
85.390000000000
 11
107.430000000000
 21
92.390000000000
  0
LINE
  8
NT4WORP000
  6
CONTINUOUS
 10
160.580000000000
 20
119.060000000000
 11
160.580000000000
 21
112.060000000000
  0
LINE
  8
NT4WORP000
  6
CONTINUOUS
 10
164.580000000000
 20
112.060000000000
 11
164.580000000000
 21
119.060000000000
  0
LINE
  8
NT4WORP000
  6
CONTINUOUS
 10
92.500000000000
 20
131.500000000000
 11
92.500000000000
 21
81.500000000000
  0
LINE
  8
NT4WORP000
  6
CONTINUOUS
 10
185.500000000000
 20
81.500000000000
 11
185.500000000000
 21
131.500000000000
  0
LINE
  8
NT4WORP000
  6
CONTINUOUS
 10
95.500000000000
 20
78.500000000000
 11
182.500000000000
 21
78.500000000000
  0
LINE
  8
NT4WORP000
  6
CONTINUOUS
 10
182.500000000000
 20
134.500000000000
 11
95.500000000000
 21
134.500000000000
  0
ARC
  8
NT4WORP000
  6
CONTINUOUS
 10
95.500000000000
 20
131.500000000000
 40
3.000000000000
 50
90.000000000000
 51
180.000000000000
  0
ARC
  8
NT4WORP000
  6
CONTINUOUS
 10
95.500000000000
 20
81.500000000000
 40
3.000000000000
 50
180.000000000000
 51
270.000000000000
  0
ARC
  8
NT4WORP000
  6
CONTINUOUS
 10
182.500000000000
 20
81.500000000000
 40
3.000000000000
 50
-90.000000000000
 51
0.000000000000
  0
ARC
  8
NT4WORP000
  6
CONTINUOUS
 10
182.500000000000
 20
131.500000000000
 40
3.000000000000
 50
0.000000000000
 51
90.000000000000
  0
CIRCLE
  8
NT4WORP000
  6
CONTINUOUS
 10
142.260000000000
 20
107.940000000000
 40
2.000000000000
  0
LINE
  8
NT4WORP000
  6
CONTINUOUS
 10
101.080000000000
 20
92.390000000000
 11
101.080000000000
 21
85.390000000000
  0
TEXT
  8
NT4WORP000
 10
99.000000000000
 20
125.000000000000
 40
2.500000000000
 50
0.000000000000
  1
外部電源
  0
TEXT
  8
NT4WORP000
 10
95.000000000000
 20
96.000000000000
 40
2.000000000000
 50
0.000000000000
  1
スピーカ
  0
TEXT
  8
NT4WORP000
 10
104.000000000000
 20
96.000000000000
 40
2.000000000000
 50
0.000000000000
  1
電源
  0
TEXT
  8
NT4WORP000
 10
97.000000000000
 20
93.000000000000
 40
2.000000000000
 50
0.000000000000
  1
ON
  0
TEXT
  8
NT4WORP000
 10
97.000000000000
 20
83.000000000000
 40
2.000000000000
 50
0.000000000000
  1
OFF
  0
TEXT
  8
NT4WORP000
 10
104.000000000000
 20
93.000000000000
 40
2.000000000000
 50
0.000000000000
  1
外部
  0
TEXT
  8
NT4WORP000
 10
104.000000000000
 20
83.000000000000
 40
2.000000000000
 50
0.000000000000
  1
PV
  0
TEXT
  8
NT4WORP000
 10
115.000000000000
 20
113.000000000000
 40
2.500000000000
 50
0.000000000000
  1
信号モニタ
  0
TEXT
  8
NT4WORP000
 10
108.000000000000
 20
108.000000000000
 40
2.000000000000
 50
0.000000000000
  1
リモート
  0
TEXT
  8
NT4WORP000
 10
109.000000000000
 20
102.000000000000
 40
2.000000000000
 50
0.000000000000
  1
セーブ
  0
TEXT
  8
NT4WORP000
 10
127.000000000000
 20
102.000000000000
 40
2.000000000000
 50
0.000000000000
  1
ロード
  0
TEXT
  8
NT4WORP000
 10
137.000000000000
 20
105.000000000000
 40
2.000000000000
 50
0.000000000000
  1
低
  0
TEXT
  8
NT4WORP000
 10
139.000000000000
 20
113.000000000000
 40
2.500000000000
 50
0.000000000000
  1
ゲイン
  0
TEXT
  8
NT4WORP000
 10
146.000000000000
 20
105.000000000000
 40
2.000000000000
 50
0.000000000000
  1
高
  0
TEXT
  8
NT4WORP000
 10
132.000000000000
 20
99.000000000000
 40
2.000000000000
 50
0.000000000000
  1
テスト
  0
TEXT
  8
NT4WORP000
 10
130.000000000000
 20
93.000000000000
 40
2.000000000000
 50
0.000000000000
  1
1200
  0
TEXT
  8
NT4WORP000
 10
149.000000000000
 20
93.000000000000
 40
2.000000000000
 50
0.000000000000
  1
2400
  0
TEXT
  8
NT4WORP000
 10
149.000000000000
 20
99.000000000000
 40
2.000000000000
 50
0.000000000000
  1
4800
  0
TEXT
  8
NT4WORP000
 10
159.000000000000
 20
123.000000000000
 40
2.500000000000
 50
0.000000000000
  1
アンプ
  0
TEXT
  8
NT4WORP000
 10
160.000000000000
 20
120.000000000000
 40
2.000000000000
 50
0.000000000000
  1
通常
  0
TEXT
  8
NT4WORP000
 10
159.000000000000
 20
109.000000000000
 40
2.000000000000
 50
0.000000000000
  1
ブースト
  0
TEXT
  8
NT4WORP000
 10
172.000000000000
 20
125.000000000000
 40
2.500000000000
 50
0.000000000000
  1
ロード
  0
TEXT
  8
NT4WORP000
 10
172.000000000000
 20
115.000000000000
 40
2.500000000000
 50
0.000000000000
  1
BPF
  0
TEXT
  8
NT4WORP000
 10
172.000000000000
 20
105.000000000000
 40
2.500000000000
 50
0.000000000000
  1
セーブ
  0
TEXT
  8
NT4WORP000
 10
170.000000000000
 20
93.000000000000
 40
2.500000000000
 50
0.000000000000
  1
リモート
  0
TEXT
  8
NT4WORP000
 10
138.000000000000
 20
88.000000000000
 40
2.500000000000
 50
0.000000000000
  1
ステータス
  0
TEXT
  8
NT4WORP000
 10
115.000000000000
 20
128.000000000000
 40
3.200000047684
 50
0.000000000000
  1
「ロード一発！カツヲ君」
  0
TEXT
  8
NT4WORP000
 10
117.000000000000
 20
123.000000000000
 40
2.000000000000
 50
0.000000000000
  1
CMT Interface
  0
TEXT
  8
NT4WORP000
 10
126.000000000000
 20
120.000000000000
 40
2.000000000000
 50
0.000000000000
  1
for CASIO MSX
  0
ARC
  8
NT4WORP000
  6
CONTINUOUS
 10
142.260000000000
 20
107.940000000000
 40
3.000000000000
 50
0.000000000000
 51
225.000000000000
  0
ARC
  8
NT4WORP000
  6
CONTINUOUS
 10
142.260000000000
 20
107.940000000000
 40
3.000000000000
 50
315.000000000000
 51
360.000000000000
  0
LINE
  8
NT4WORP000
  6
CONTINUOUS
 10
95.000000000000
 20
128.000000000000
 11
95.000000000000
 21
124.000000000000
  0
LINE
  8
NT4WORP000
  6
CONTINUOUS
 10
95.000000000000
 20
124.000000000000
 11
98.000000000000
 21
126.000000000000
  0
LINE
  8
NT4WORP000
  6
CONTINUOUS
 10
98.000000000000
 20
126.000000000000
 11
95.000000000000
 21
128.000000000000
  0
LINE
  8
NT4WORP000
  6
CONTINUOUS
 10
183.000000000000
 20
124.000000000000
 11
183.000000000000
 21
128.000000000000
  0
LINE
  8
NT4WORP000
  6
CONTINUOUS
 10
183.000000000000
 20
128.000000000000
 11
180.000000000000
 21
126.000000000000
  0
LINE
  8
NT4WORP000
  6
CONTINUOUS
 10
180.000000000000
 20
126.000000000000
 11
183.000000000000
 21
124.000000000000
  0
LINE
  8
NT4WORP000
  6
CONTINUOUS
 10
180.000000000000
 20
118.000000000000
 11
180.000000000000
 21
114.000000000000
  0
LINE
  8
NT4WORP000
  6
CONTINUOUS
 10
180.000000000000
 20
114.000000000000
 11
183.000000000000
 21
116.000000000000
  0
LINE
  8
NT4WORP000
  6
CONTINUOUS
 10
183.000000000000
 20
116.000000000000
 11
180.000000000000
 21
118.000000000000
  0
LINE
  8
NT4WORP000
  6
CONTINUOUS
 10
180.000000000000
 20
108.000000000000
 11
180.000000000000
 21
104.000000000000
  0
LINE
  8
NT4WORP000
  6
CONTINUOUS
 10
180.000000000000
 20
104.000000000000
 11
183.000000000000
 21
106.000000000000
  0
LINE
  8
NT4WORP000
  6
CONTINUOUS
 10
183.000000000000
 20
106.000000000000
 11
180.000000000000
 21
108.000000000000
  0
LINE
  8
NT4WORP000
  6
CONTINUOUS
 10
180.000000000000
 20
96.000000000000
 11
180.000000000000
 21
92.000000000000
  0
LINE
  8
NT4WORP000
  6
CONTINUOUS
 10
180.000000000000
 20
92.000000000000
 11
183.000000000000
 21
94.000000000000
  0
LINE
  8
NT4WORP000
  6
CONTINUOUS
 10
183.000000000000
 20
94.000000000000
 11
180.000000000000
 21
96.000000000000
  0
ENDSEC
  0
EOF
